Меню сайта
Разделы новостей
Новости LP [122]
Новости сайта [49]
Наш опрос
Кто ваш самый любимый участник Linkin Park?
Всего ответов: 178
Форма входа
Календарь новостей
«  Декабрь 2017  »
ПнВтСрЧтПтСбВс
    123
45678910
11121314151617
18192021222324
25262728293031
Поиск
Друзья сайта
Статистика

Онлайн всего: 1
Гостей: 1
Пользователей: 0

Вторник, 12.12.2017, 22:39

LINKIN PARK


Приветствую Вас Гость
Табулатура LP
RSS
Теперь вы можете скачать табулатуру Linkin Park  GTP
СКАЧАТЬ 1 http://depositfiles.com/files/duzm19t2o
СКАЧАТЬ 2 http://depositfiles.com/files/z93qlkkff







A PLASE FOR MY HEAD

Tuning: C, G, C, F, A, D

Verse 1 and Verse 2 Part 1
D ---------------------------------------------------------------
A ---------------------------------------------------------------
F -------6-6-6-7-6-4---------------------------------------------
C 4---4-----------------7-7--5-5-5-5-5-7-------------------------
G ---------------------------------------------------------------
C ---------------------------------------------------------------

Verse 2 Part 2
D ----------------------------------------------------------------
A ----------------------------------------------------------------
F 6-------2-------6-------2---------------------------------------
C 4-------0-------4-------0---------------------------------------
G 4-------0-------4-------0---------------------------------------
C 4-------0-------4-------0---------------------------------------

Chorus
D ----------------------------------------------------------------
A ----------------------------------------------------------------
F -----------6-7-6-4-2--2--2-2------------------------------------
C 4--4--4-4--6-7-6-4-2--2--2-2-5-5-5-7----------------------------
G 4--4--4-4--4-5-4-2-0--0--0-0-5-5-5-7----------------------------
C 4--4--4-4--------------------5-5-5-7----------------------------

Ending
D -----------------------------------------------------------------
A -----------------------------------------------------------------
F -----------------------------------------------------------------
C 4-4---4-4-4-4---4-4-4---4-4-4-5-7--------------------------------
G 4-4---4-4-4-4---4-4-4---4-4-4-5-7--------------------------------
C 4-4---4-4-4-4---4-4-4---4-4-4-5-7-------------------------------
 
                                                     PAPERCUT
 
Tuning: C, G, C, F, D, A

Intro
D 10--12--13--12--10--12--13--12-----
A --10--10--10--10--10--10--10--10---
F -----------------------------------------
C -----------------------------------------
G -----------------------------------------
C -----------------------------------------

Chorus
D -----------------------------------------
A -----------------------------------------
F --------10--9--5------------------------
C 0-0-0-------------------------------1-3
G 0-0-0---8--7--3--------------------1-3
C 0-0-0-------------------------------1-3
(last time only)

Verse
D -------------------------------------------
A -------------------------------------------
F -------------------------------------------
C 0-0-0----8-8-8-8-7-7---------------1-3
G 0-0-0----8-8-8-8-7-7---------------1-3
C 0-0-0----8-8-8-8-7-7----------------1-3
[palm mute all] [Every Other Time]

Ending
D --------------------------------------------------------------
A --------------------------------------------------------------
F --------------------------------------------------------------
C 8-8-8---8---8-8-10-10-10---5-5-5---5--5-5-5-5---5-5-5
G 8-8-8---8---8-8-10-10-10---5-5-5---5--5-5-5-5---5-5-5
C 8-8-8---8---8-8-10-10-10---5-5-5---5--5-5-5-5---5-5-5


                                                  BY MY SELF
 
Tuning: C, G, C, F, A, D
* = Harmonic

Intro and Bridge
D --------------------------------------------------------------
A --------------------------------------------------------------
F 4--4-----------------4--4-------------------------------------
C 4--4--*3--3-3--3--3--4--4--*3--3-3--3--3----------------------
G 2--2------3-3--3--3--2--2------3-3--3--3----------------------
C ----------3-3--3--3------------3-3--3--3----------------------
pm....... pm.......

Chorus
D --------------------------------------------------------------
A --------------------------------------------------------------
F 4--------------------------4----------------------------------
C 4----5--x-x--x--2--x-x--x--4----5--x-x--x--2--x-x--x----------
G 2----5--x-x--x--2--x-x--x--2----5--x-x--x--2--x-x--x----------
C -----5--x-x--x--2--x-x--x-------5--x-x--x--2--x-x--x----------
pm..... pm..... pm..... pm.....

Middle Part
D --------------------------------------------------------------
A --------------------------------------------------------------
F 4--4------------------4--4------------------------------------
C 4--4-------3-3--3--3--4--4-------3-3--3--3--------------------
G 2--2-------3-3--3--3--2--2-------3-3--3--3--------------------
C -----------3-3--3--3-------------3-3--3--3--------------------
pm........... pm............
 
                                                        RUNAWAY
Tuning: C, G, C, F, A, D
* = Harmonic

Intro
D -------------------------------------------------------
A -------------------------------------------------------
F 7---7-7-10---10-10--10---10-10-3---3-3-5---5-5--5---5-5
C 7---7-7-10---10-10--10---10-10-3---3-3-5---5-5--5---5-5
G 5---5-5--8----8--8---8----8--8-1---1-1-3---3-3--3---3-3
C -------------------------------------------------------

Chorus
D ---------------------------------------------------------------
A ---------------------------------------------------------------
F ----------10---10-10--10---10-10-------------------------------
C 0---0-0---10---10-10--10---10-10-8---8-8-10---10-10--10---10-10
G 0---0-0---8----8---8---8----8--8-8---8-8-10---10-10--10---10-10
C 0---0-0--------------------------8---8-8-10---10-10--10---10-10

Verse (clean)
D -----------------------------------------------------------
A -----------------------------------------------------------
F -----------------------------------------------------------
C *12-*12-*12-*12-*12-*12-*12-*12-*12-*12-*12-*12-10-10-10-10
G -----------------------------------------------------------
C -----------------------------------------------------------
pm.........................................................

Middle Part
D -----------------------------------
A -----------------------------------
F -----------------------------------
C 0---0-0-1-0-0-0---0-0-0-1----------
G 0---0-0-1-0-0-0---0-0-0-1----------
C 0---0-0-1-0-0-0---0-0-0-1----------

                                                      ONE STEP CLOSER
Tuning: C, G, C, F, A, D
* = Harmonic
pm = Palm Mute

Intro
D -----------------------------------------------
A -----------------------------------------------
F -----------------------------------------------
C -----------------------------------------------
G ---------*7------------------------------------
C 0--*5-0-----8-7--0-3---------------------------
pm pm pm

Verse
D -----------------------------------------------
A -----------------------------------------------
F --------9--------5-----------------------------
C 0-0--0--x--8-7---x-----------------------------
G 0-0--0--7--8-7---3-----------------------------
C 0-0--0-----8-7-0-------------------------------

Bridge 1
D -------------------------------------------------------------
A -------------------------------------------------------------
F -------------------------------------------------------------
C 5-5---x-x---x-5-5---x-x---x-5-5--x-x---x---------------------
G 5-5---x-x---x-5-5---x-x---x-5-5--x-x---x---------------------
C 5-5---x-x---x-5-5---x-x---x-5-5--x-x---x---------------------

Bridge 2
D ------------------------------------*5-*5-*5--------
A ---------------------------------*5-----------------
F ----------------------------------------------------
C 5-5---x-x---x-5-5---x-x---x-5-5---------------------
G 5-5---x-x---x-5-5---x-x---x-5-5---------------------
C 5-5---x-x---x-5-5---x-x---x-5-5---------------------

Chorus
D ----------------------------------------------------------
A ----------------------------------------------------------
F ----------------------------------------------------------
C 0--0--12-12--10-10--7---8-8--5-5--7-7--3-3---1-1-1-1-1-1-1
G 0--0--12-12--10-10--7---8-8--5-5--7-7--3-3---1-1-1-1-1-1-1
C 0--0--12-12--10-10--7---8-8--5-5--7-7--3-3---1-1-1-1-1-1-1
(last time only)

Other Part
D -------------------------------------------
A -------------------------------------------
F -------------------------------------------
C 1-0---0-0---0---1-3-0-0--6\------0-0-0-----
G 1-0---0-0---0---1-3-0-0--6\------0-0-0-----
C 1-0---0-0---0---1-3-0-0--6\------0-0-0-----
pm...... (second time only)

                                                      IN THE END
 
Tuning: C, G, C, F, A, D
* = Harmonics

D ------------------------------------------------------
A ------------------------------------------------------
F ---4-4--------------0---------------------------------
C -------5-4---4-4--4-----------------------------------
G -7----------------------------------------------------
C ------------------------------------------------------
Piano arranged for guitar

D -----------7*---------------12*--
A -----7*--------------7*----------
F -5*---------------5*-------------
C ---------------------------------
G ---------------------------------
C ---------------------------------

D -------------------------------------------------
A -------------------------------------------------
F -------------7-----5------------------7-----5--4-
C -2-----5-----7-----5---0--2-----5-----7-----5--4-
G -2-----5-----5-----3---0--2-----5-----5-----3--2-
C -2-----5-----0---------0--2-----5-----0----------

Chorus/Bridge
D -------0-2-3-2--
A ----------------
F -----4----------
C ---5------------
G -7--------------
C ----------------
 
                                                        PUSHING ME AWAY
Tuning: C, G, C, F, A, D

Intro and Verse
D *12------------|------*12------|--------------|--------------
A -------*12-----|---*7------*12-|------*12-----|*12----*7-----
F ----*7---------|*5-------------|---*7---------|-----------*7-
C ---------------|---------------|*7------------|----*7--------
G ------------*7-|---------------|-----------*7-|--------------
C ---------------|---------------|--------------|--------------

Chorus 1
D ---------------------------------------------------------------------------------
A ---------------------------------------------------------------------------------
F -----------------------5---5---5-5--5-5---5-5-----------------------2---2--2-4---
C 2---2---2-2--2-2---2-2-5---5---5-5--5-5---5-5-5---5---5-5--5-5--5-5-2---2--2-4--0
G 2---2---2-2--2-2---2-2-3---3---3-3--3-3---3-3-5---5---5-5--5-5--5-5-0---0--0-2--0
C 2---2---2-2--2-2---2-2------------------------5---5---5-5--5-5--5-5-------------0

Chorus 2
D ----------------------------------------------------------------------------------
A ----------------------------------------------------------------------------------
F 5---5---5-5--5-5---5-5-7---7---7-7--7-7---7-7-2---2---2-2--2-2---2-2-------------5
C 5---5---5-5--5-5---5-5-7---7---7-7--7-7---7-7-2---2---2-2--2-2---2-2-4---4--4-5--5
G 3---3---3-3--3-3---3-3-5---5---5-5--5-5---5-5-0---0---0-0--0-0---0-0-4---4--4-5--2
C ---------------------------------------------------------------------4---4--4-5---

                                                    CRAWLING
 
Tuning: C, G, C, F, A, D
Note: В песне всего одна гитарная партия, она в припеве.

Chorus
D ----------------------------------------
A ----------------------------------------
F -----3---------5----2-------------------
C 0----3----3----5----2-------------------
G 0----1----3----3----0-------------------
C 0---------3-----------------------------
With You

Guitar Tuning: C, G, C, F, A, D (low to high)

Key: / = Slide
* = Harmonic

INTRO/opening to chorus (* means a harmonic)
D --------------------------------
A --------------------------------
F --------------------------------
C --------------------------------
G --------------------------------
C ---0-0--0-13/0--0-0-0-0-0-4*----

VERSE (High B string and G)
D ---20---19------------------------20--------19--
A --------------19---16-------16--------12--------
F ------------------------------------------------
C ------------------------------------------------
G ------------------------------------------------
C ------------------------------------------------

CHORUS/second part of intro
D --------------------------------------------------
A --------------------------------------------------
F --------------------------------7--------------4--
C ---2----------------------------5--------------x--
G ---0--------------2-------------3--------------5--
C ------------------0----------------------------3--


 
 
 
Copyright MyCorp © 2017 |